Make your own free website on Tripod.com

ZENICA BLUES (ZABRANJENO PUSENJE)




                                         G7

e-----|----------------|----2-----------|--3-3-3---3-3---|3-3-3-3---------
H-----|----------------|----3-----------|----66-----6-6--|6----6----6-----
G-----|----------------|----2-----------|----4---------4-|4---------------
D-----|5---5-5-7-7-5-4-|5---0-----0-2-4-|----------------|----------------
A-5-5-|----------------|----------------|----------------|----------------
E-----|----------------|----------------|3---------------|3---------------



G7       D7         G7
U Zenicu kada podjem ja,

G7       C7            G7  G A H
Prati me pet-sest drotova,

C                   Em       C        \
Okruzni sudija reko dvanaest godina,   \
                                        > x2
         G7     D7           G7        /
dvanaest godina strogog zatvora.      /

Tuzna je moja sudbina,
zenu mi Kreso Hakija,
Kreso Hakija presudila mu cakija,
ne razumijes ti to druze sudija.

Zenico mrzim svaki kamen tvoj,
zbog tebe ja mrzim zivot svoj,
ko prezivi dvanaest godina u K.P. Domu Zenica,
taj je pravi hadzija.

prelaz D#7 x8 pa svi akordi za pola tona gore

Raduje me jedna istina,
iz K.P. Doma vratit cu se ja,
ali Hakija nikad nece sa Bara,
sa Bara se niko ne vraca. 

e|4-----------------3/4---
H|--7-4-------------6/7---
G|------7-6-4-------4/5---
D|------------6-4-6-5/6---
A|------------------------
E|------------------------

BACK TO POP-ROCK PAGE