Make your own free website on Tripod.com

ODLAZIM DALEKO (MACHBETH)



intro riff                                                                                fill 1
               A.H          A.H                       A#        F   C           
----------------------------------------------------------]----------------------------
----------------------------------------------------------]---5-(6)--3----------------
-------------------------------------------------5--------]-------------5-------------
--------------------------------3--------3--3---3---5----]----------------5---------
--5----3----5----3-5-5---3-5----5-3---1--1-------3----]---------------------------
----------5-----------------------------------------------]---------------------------

D
TI NEZNAS STA JE LJUBAV,
A#
I NEKOGA SI TI,
C
LAGALA SI MENE,
D                C
I NE ZNAS VOLJETI.

KAD NE BUDE MENE,
TAD CE NEKI DRUGI, 
NA STAROM MJESTU,
KO JA DA TE LJUBI.

PRELAZ: C , D , F , C 

REF:  C                                    D
      ODLAZIM DALEKO,A TRAZI NOVE, - fill 1
       C                                  D
      ODLAZIM U ZEMLJU STO LJUBAV SE ZOVE.- fill 1

solo                             A.H 
----------------------------------------------------]-------------
--------------6-6---------------6^5----------8----]-------------
--------5----------7-5-7-------------7-5--7----7--]---x 2------
---5^7---7-----------------------------------------]-------------
----------------------------------------------------]-------------
----------------------------------------------------]--------------
AKORDI PREKO SOLA SU  D, A#,C

A.H = artificial harmonic
^ = hammer on ili pull off
5(6) = bend half step(jednu notu)

THANKS TO DAMIR FIFIC. 


BACK TO POP-ROCK PAGE